;

Welcome, Guest. Please login or register.
Did you miss your activation email?

Username: Password:
Pages: [1]   Go Down

Author Topic: Belajar Gitar lagu Slank - Ku Tak Bisa tablature  (Read 1150 times)

iramanis

  • Cabin Crew
  • *
  • Keong: 0
  • Offline Offline
  • Posts: 14
    • Berita Anak Medan
Belajar Gitar lagu Slank - Ku Tak Bisa tablature
« on: May 23, 2012, 07:25:11 pm »

 hai....para slankers2 sejati...
kali ini saya akan bahas topik belajar gitar memainkan lagu dari slank yang judulnya ku tak bisa .....
 oke langsung aja ke TKP gan ...hehehe





Intro: C (piano)

C Em
Pernah berpikir 'tuk pergi
F C G
Dan terlintas tinggalkan kau sendiri
C Em
Sempat ingin sudahi sampai di sini
F C
Coba lari dari kenyataan
G   Dm  F  C G
Tapi ku tak bisa jauh jauh darimu
Dm F C G
Ku tak bisa jauh jauh darimu

Int: C

C Em
Lalu mau apa lagi
F C G
Kalau kita sudah gak saling mengerti
C Em
Sampai kapan bertahan seperti ini
F C
Dua hati bercampur emosi
G Dm F C G
Tapi ku tak bisa jauh jauh darimu
Dm F C G
Ku tak bisa jauh jauh darimu

Int: Am Em (2x)
Bb Gm Em Am

 

Abdee ( Guitarist)

E-------------------------------------------------------------|
B-------------------------------------------------------------|
G----------12/14-14---14\12---9^-9----------------------------|
D-------10----------------------------------------------------|
A-10h12-------------------------------------------------------|
E-------------------------------------------------------------|


E-------------------------------------------------------------|
B---------------------------------------------------10-11-11--|
G----------12/14-14---14\12--------------------9-12-----------|
D-------10--------------------9^-9--------9-12----------------|
A-10h12-----------------------------10-12---------------------|
E-------------------------------------------------------------|


E-------------------------------------------------------------|
B-10-8-10h11---11p10-8-------------------------10-11-12-13----|
G--------------------------------------9-10-12----------------|
D------------------------------9-10-12------------------------|
A------------------------11-12--------------------------------|
E-------------------------------------------------------------|
http://belajargitarku.blogspot.com
E-10-11-12-13/----17---13/---17---13/--17---13/---17----------|
B-------------------------------------------------------------|
G-------------------------------------------------------------|
D-------------------------------------------------------------|
A-------------------------------------------------------------|
E-------------------------------------------------------------|


Am  Em
Sabar sabar aku coba sadar
Am  Em
Sadar sadar seharusnya kita sadar
F
Kau dan aku tercipta
Fm
Gak boleh terpisah

Dm F C G
Dan tak bisa jauh jauh darimu
Dm F C G
Ku tak bisa jauh jauh darimu (3x)

Coda: Dm F C

ini riff untuk mengiringi reff ny  :

E-------------------------------------------------------------|
B-------5-5h6---------5-5h6---5^-----3~~~~--------------------|
G-----7-------------5-----------------------------------------|
D-5h7-----------5h7-------------------------------------------|
A-------------------------------------------------------------|
E-------------------------------------------------------------|

kalau ada lirik atau chord atau tab nya yang kurang akurat...

mohon sarannya untuk perbaikan heehe....... \m/
SUMBER : http://belajargitarku.blogspot.com

Ayam Ketawa

  • Cabin Crew
  • *
  • Keong: 0
  • Offline Offline
  • Posts: 175
Re: Belajar Gitar lagu Slank - Ku Tak Bisa tablature
« Reply #1 on: May 30, 2012, 02:14:08 pm »

pas SMA udah ngebawai iringan gitar lagu ini, nampol kunci2nya  ^-^ ^-^
Logged
Pages: [1]   Go Up